  0
SECTION
  2
HEADER
  9
$ACADVER
  1
AC1015
  9
$ACADMAINTVER
 70
     6
  9
$DWGCODEPAGE
  3
ANSI_1254
  9
$INSBASE
 10
0.0
 20
0.0
 30
0.0
  9
$EXTMIN
 10
0.0
 20
0.0
 30
0.0
  9
$EXTMAX
 10
279.4
 20
215.9
 30
0.0
  9
$LIMMIN
 10
0.0
 20
0.0
  9
$LIMMAX
 10
279.4
 20
215.9
  9
$ORTHOMODE
 70
     0
  9
$REGENMODE
 70
     1
  9
$FILLMODE
 70
     1
  9
$QTEXTMODE
 70
     0
  9
$MIRRTEXT
 70
     1
  9
$LTSCALE
 40
1.0
  9
$ATTMODE
 70
     1
  9
$TEXTSIZE
 40
3.5
  9
$TRACEWID
 40
1.0
  9
$TEXTSTYLE
  7
Standard
  9
$CLAYER
  8
0
  9
$CELTYPE
  6
ByLayer
  9
$CECOLOR
 62
   256
  9
$CELTSCALE
 40
1.0
  9
$DISPSILH
 70
     0
  9
$DIMSCALE
 40
1.0
  9
$DIMASZ
 40
3.5
  9
$DIMEXO
 40
1.0
  9
$DIMDLI
 40
3.75
  9
$DIMRND
 40
0.0
  9
$DIMDLE
 40
0.0
  9
$DIMEXE
 40
1.0
  9
$DIMTP
 40
0.0
  9
$DIMTM
 40
0.0
  9
$DIMTXT
 40
3.5
  9
$DIMCEN
 40
2.5
  9
$DIMTSZ
 40
0.0
  9
$DIMTOL
 70
     0
  9
$DIMLIM
 70
     0
  9
$DIMTIH
 70
     1
  9
$DIMTOH
 70
     1
  9
$DIMSE1
 70
     0
  9
$DIMSE2
 70
     0
  9
$DIMTAD
 70
     1
  9
$DIMZIN
 70
     0
  9
$DIMBLK
  1

  9
$DIMASO
 70
     1
  9
$DIMSHO
 70
     1
  9
$DIMPOST
  1

  9
$DIMAPOST
  1

  9
$DIMALT
 70
     0
  9
$DIMALTD
 70
     3
  9
$DIMALTF
 40
0.0393700787
  9
$DIMLFAC
 40
1.0
  9
$DIMTOFL
 70
     1
  9
$DIMTVP
 40
0.0
  9
$DIMTIX
 70
     0
  9
$DIMSOXD
 70
     0
  9
$DIMSAH
 70
     0
  9
$DIMBLK1
  1

  9
$DIMBLK2
  1

  9
$DIMSTYLE
  2
ISO-25
  9
$DIMCLRD
 70
     0
  9
$DIMCLRE
 70
     0
  9
$DIMCLRT
 70
     0
  9
$DIMTFAC
 40
1.0
  9
$DIMGAP
 40
1.524
  9
$DIMJUST
 70
     0
  9
$DIMSD1
 70
     0
  9
$DIMSD2
 70
     0
  9
$DIMTOLJ
 70
     0
  9
$DIMTZIN
 70
     0
  9
$DIMALTZ
 70
     0
  9
$DIMALTTZ
 70
     0
  9
$DIMUPT
 70
     0
  9
$DIMDEC
 70
     2
  9
$DIMTDEC
 70
     2
  9
$DIMALTU
 70
     2
  9
$DIMALTTD
 70
     3
  9
$DIMTXSTY
  7
Standard
  9
$DIMAUNIT
 70
     0
  9
$DIMADEC
 70
     2
  9
$DIMALTRND
 40
0.0
  9
$DIMAZIN
 70
     0
  9
$DIMDSEP
 70
    44
  9
$DIMATFIT
 70
     3
  9
$DIMFRAC
 70
     0
  9
$DIMLDRBLK
  1

  9
$DIMLUNIT
 70
     2
  9
$DIMLWD
 70
    -2
  9
$DIMLWE
 70
    -2
  9
$DIMTMOVE
 70
     0
  9
$LUNITS
 70
     2
  9
$LUPREC
 70
     2
  9
$SKETCHINC
 40
1.0
  9
$FILLETRAD
 40
10.0
  9
$AUNITS
 70
     0
  9
$AUPREC
 70
     2
  9
$MENU
  1
.
  9
$ELEVATION
 40
0.0
  9
$PELEVATION
 40
0.0
  9
$THICKNESS
 40
0.0
  9
$LIMCHECK
 70
     0
  9
$CHAMFERA
 40
0.0
  9
$CHAMFERB
 40
0.0
  9
$CHAMFERC
 40
0.0
  9
$CHAMFERD
 40
0.0
  9
$SKPOLY
 70
     0
  9
$TDCREATE
 40
2458985.705620787
  9
$TDUCREATE
 40
2458985.580620787
  9
$TDUPDATE
 40
2458985.705621296
  9
$TDUUPDATE
 40
2458985.580621296
  9
$TDINDWG
 40
0.0000000116
  9
$TDUSRTIMER
 40
0.0000000116
  9
$USRTIMER
 70
     1
  9
$ANGBASE
 50
0.0
  9
$ANGDIR
 70
     0
  9
$PDMODE
 70
     0
  9
$PDSIZE
 40
-1.0
  9
$PLINEWID
 40
0.0
  9
$SPLFRAME
 70
     0
  9
$SPLINETYPE
 70
     6
  9
$SPLINESEGS
 70
     8
  9
$HANDSEED
  5
ED
  9
$SURFTAB1
 70
     6
  9
$SURFTAB2
 70
     6
  9
$SURFTYPE
 70
     6
  9
$SURFU
 70
     6
  9
$SURFV
 70
     6
  9
$UCSBASE
  2

  9
$UCSNAME
  2

  9
$UCSORG
 10
0.0
 20
0.0
 30
0.0
  9
$UCSXDIR
 10
1.0
 20
0.0
 30
0.0
  9
$UCSYDIR
 10
0.0
 20
1.0
 30
0.0
  9
$UCSORTHOREF
  2

  9
$UCSORTHOVIEW
 70
     0
  9
$UCSORGTOP
 10
0.0
 20
0.0
 30
0.0
  9
$UCSORGBOTTOM
 10
0.0
 20
0.0
 30
0.0
  9
$UCSORGLEFT
 10
0.0
 20
0.0
 30
0.0
  9
$UCSORGRIGHT
 10
0.0
 20
0.0
 30
0.0
  9
$UCSORGFRONT
 10
0.0
 20
0.0
 30
0.0
  9
$UCSORGBACK
 10
0.0
 20
0.0
 30
0.0
  9
$PUCSBASE
  2

  9
$PUCSNAME
  2

  9
$PUCSORG
 10
0.0
 20
0.0
 30
0.0
  9
$PUCSXDIR
 10
1.0
 20
0.0
 30
0.0
  9
$PUCSYDIR
 10
0.0
 20
1.0
 30
0.0
  9
$PUCSORTHOREF
  2

  9
$PUCSORTHOVIEW
 70
     0
  9
$PUCSORGTOP
 10
0.0
 20
0.0
 30
0.0
  9
$PUCSORGBOTTOM
 10
0.0
 20
0.0
 30
0.0
  9
$PUCSORGLEFT
 10
0.0
 20
0.0
 30
0.0
  9
$PUCSORGRIGHT
 10
0.0
 20
0.0
 30
0.0
  9
$PUCSORGFRONT
 10
0.0
 20
0.0
 30
0.0
  9
$PUCSORGBACK
 10
0.0
 20
0.0
 30
0.0
  9
$USERI1
 70
     0
  9
$USERI2
 70
     0
  9
$USERI3
 70
     0
  9
$USERI4
 70
     0
  9
$USERI5
 70
     0
  9
$USERR1
 40
0.0
  9
$USERR2
 40
0.0
  9
$USERR3
 40
0.0
  9
$USERR4
 40
0.0
  9
$USERR5
 40
0.0
  9
$WORLDVIEW
 70
     1
  9
$SHADEDGE
 70
     3
  9
$SHADEDIF
 70
    70
  9
$TILEMODE
 70
     1
  9
$MAXACTVP
 70
    64
  9
$PINSBASE
 10
0.0
 20
0.0
 30
0.0
  9
$PLIMCHECK
 70
     0
  9
$PEXTMIN
 10
1.0000000000E+20
 20
1.0000000000E+20
 30
1.0000000000E+20
  9
$PEXTMAX
 10
-1.0000000000E+20
 20
-1.0000000000E+20
 30
-1.0000000000E+20
  9
$PLIMMIN
 10
0.0
 20
0.0
  9
$PLIMMAX
 10
420.0
 20
297.0
  9
$UNITMODE
 70
     0
  9
$VISRETAIN
 70
     1
  9
$PLINEGEN
 70
     0
  9
$PSLTSCALE
 70
     1
  9
$TREEDEPTH
 70
  3020
  9
$CMLSTYLE
  2
Standard
  9
$CMLJUST
 70
     0
  9
$CMLSCALE
 40
20.0
  9
$PROXYGRAPHICS
 70
     1
  9
$MEASUREMENT
 70
     1
  9
$CELWEIGHT
370
    -1
  9
$ENDCAPS
280
     0
  9
$JOINSTYLE
280
     0
  9
$LWDISPLAY
290
     1
  9
$INSUNITS
 70
     4
  9
$HYPERLINKBASE
  1

  9
$STYLESHEET
  1

  9
$XEDIT
290
     1
  9
$CEPSNTYPE
380
     0
  9
$PSTYLEMODE
290
     1
  9
$FINGERPRINTGUID
  2
{748bbfa5-ff49-451c-9bb2-e8e3541963e2}
  9
$VERSIONGUID
  2
{FAEB1C32-E019-11D5-929B-00C0DF256EC4}
  9
$EXTNAMES
290
     1
  9
$PSVPSCALE
 40
0.0
  9
$OLESTARTUP
290
     0
  0
ENDSEC
  0
SECTION
  2
CLASSES
  0
CLASS
  1
ACDBDICTIONARYWDFLT
  2
AcDbDictionaryWithDefault
  3
ObjectDBX Classes
 90
        0
280
     0
281
     0
  0
CLASS
  1
VISUALSTYLE
  2
AcDbVisualStyle
  3
ObjectDBX Classes
 90
     4095
280
     0
281
     0
  0
CLASS
  1
MATERIAL
  2
AcDbMaterial
  3
ObjectDBX Classes
 90
     1153
280
     0
281
     0
  0
CLASS
  1
SCALE
  2
AcDbScale
  3
ObjectDBX Classes
 90
     1153
280
     0
281
     0
  0
CLASS
  1
TABLESTYLE
  2
AcDbTableStyle
  3
ObjectDBX Classes
 90
     4095
280
     0
281
     0
  0
CLASS
  1
MLEADERSTYLE
  2
AcDbMLeaderStyle
  3
ACDB_MLEADERSTYLE_CLASS
 90
     4095
280
     0
281
     0
  0
CLASS
  1
SUN
  2
AcDbSun
  3
SCENEOE
 90
     1153
280
     0
281
     0
  0
CLASS
  1
ACDBPLACEHOLDER
  2
AcDbPlaceHolder
  3
ObjectDBX Classes
 90
        0
280
     0
281
     0
  0
CLASS
  1
LAYOUT
  2
AcDbLayout
  3
ObjectDBX Classes
 90
        0
280
     0
281
     0
  0
ENDSEC
  0
SECTION
  2
TABLES
  0
TABLE
  2
VPORT
  5
8
330
0
100
AcDbSymbolTable
 70
     1
  0
VPORT
  5
29
330
8
100
AcDbSymbolTableRecord
100
AcDbViewportTableRecord
  2
*Active
 70
     0
 10
0.0
 20
0.0
 11
1.0
 21
1.0
 12
139.7
 22
107.95
 13
0.0
 23
0.0
 14
10.0
 24
10.0
 15
10.0
 25
10.0
 16
0.0
 26
0.0
 36
1.0
 17
0.0
 27
0.0
 37
0.0
 40
215.9
 41
1.2941176471
 42
50.0
 43
0.0
 44
0.0
 50
0.0
 51
0.0
 71
     0
 72
  2000
 73
     1
 74
     3
 75
     0
 76
     0
 77
     0
 78
     0
281
     0
 65
     1
110
0.0
120
0.0
130
0.0
111
1.0
121
0.0
131
0.0
112
0.0
122
1.0
132
0.0
 79
     0
146
0.0
  0
ENDTAB
  0
TABLE
  2
LTYPE
  5
5
330
0
100
AcDbSymbolTable
 70
     6
  0
LTYPE
  5
14
330
5
100
AcDbSymbolTableRecord
100
AcDbLinetypeTableRecord
  2
ByBlock
 70
     0
  3

 72
    65
 73
     0
 40
0.0
  0
LTYPE
  5
15
330
5
100
AcDbSymbolTableRecord
100
AcDbLinetypeTableRecord
  2
ByLayer
 70
     0
  3

 72
    65
 73
     0
 40
0.0
  0
LTYPE
  5
16
330
5
100
AcDbSymbolTableRecord
100
AcDbLinetypeTableRecord
  2
Continuous
 70
     0
  3
Solid line
 72
    65
 73
     0
 40
0.0
  0
LTYPE
  5
6E
330
5
100
AcDbSymbolTableRecord
100
AcDbLinetypeTableRecord
  2
HIDDEN
 70
     0
  3
Hidden __ __ __ __ __ __ __ __ __ __ __ __ __ __
 72
    65
 73
     2
 40
1.905
 49
1.27
 74
     0
 49
-0.635
 74
     0
  0
LTYPE
  5
6F
330
5
100
AcDbSymbolTableRecord
100
AcDbLinetypeTableRecord
  2
PHANTOM
 70
     0
  3
Phantom ______  __  __  ______  __  __  ______
 72
    65
 73
     6
 40
12.7
 49
6.35
 74
     0
 49
-1.27
 74
     0
 49
1.27
 74
     0
 49
-1.27
 74
     0
 49
1.27
 74
     0
 49
-1.27
 74
     0
  0
LTYPE
  5
70
330
5
100
AcDbSymbolTableRecord
100
AcDbLinetypeTableRecord
  2
CENTER
 70
     0
  3
Center ____ _ ____ _ ____ _ ____ _ ____ _ ____
 72
    65
 73
     4
 40
10.16
 49
6.35
 74
     0
 49
-1.27
 74
     0
 49
1.27
 74
     0
 49
-1.27
 74
     0
  0
LTYPE
  5
71
330
5
100
AcDbSymbolTableRecord
100
AcDbLinetypeTableRecord
  2
CENTERX2
 70
     0
  3
Center (2x) ________  __  ________  __  _____
 72
    65
 73
     4
 40
20.32
 49
12.7
 74
     0
 49
-2.54
 74
     0
 49
2.54
 74
     0
 49
-2.54
 74
     0
  0
LTYPE
  5
72
330
5
100
AcDbSymbolTableRecord
100
AcDbLinetypeTableRecord
  2
DOT2
 70
     0
  3
Dot (.5x) ........................................
 72
    65
 73
     2
 40
0.635
 49
0.0
 74
     0
 49
-0.635
 74
     0
  0
ENDTAB
  0
TABLE
  2
LAYER
  5
2
330
0
100
AcDbSymbolTable
 70
    17
  0
LAYER
  5
10
330
2
100
AcDbSymbolTableRecord
100
AcDbLayerTableRecord
  2
0
 70
     0
 62
     7
  6
Continuous
370
    -3
390
F
  0
LAYER
  5
73
330
2
100
AcDbSymbolTableRecord
100
AcDbLayerTableRecord
  2
FORMAT
 70
     0
 62
     7
  6
Continuous
370
    -3
390
F
  0
LAYER
  5
74
330
2
100
AcDbSymbolTableRecord
100
AcDbLayerTableRecord
  2
YARDIMCI_GEOMETRI
 70
     0
 62
    -6
  6
Continuous
290
     0
370
    -3
390
F
  0
LAYER
  5
75
330
2
100
AcDbSymbolTableRecord
100
AcDbLayerTableRecord
  2
SAYFA_CERCEVESI
 70
     0
 62
     7
  6
Continuous
370
    25
390
F
  0
LAYER
  5
76
330
2
100
AcDbSymbolTableRecord
100
AcDbLayerTableRecord
  2
ANTET
 70
     0
 62
     7
  6
Continuous
370
    -3
390
F
  0
LAYER
  5
77
330
2
100
AcDbSymbolTableRecord
100
AcDbLayerTableRecord
  2
OLCU
 70
     0
 62
   150
  6
Continuous
370
    -3
390
F
  0
LAYER
  5
78
330
2
100
AcDbSymbolTableRecord
100
AcDbLayerTableRecord
  2
METIN
 70
     0
 62
    96
  6
Continuous
370
    -3
390
F
  0
LAYER
  5
79
330
2
100
AcDbSymbolTableRecord
100
AcDbLayerTableRecord
  2
BALON
 70
     0
 62
     5
  6
Continuous
370
    -3
390
F
  0
LAYER
  5
7A
330
2
100
AcDbSymbolTableRecord
100
AcDbLayerTableRecord
  2
VURGU
 70
     0
 62
     7
  6
Continuous
370
    -3
390
F
  0
LAYER
  5
7B
330
2
100
AcDbSymbolTableRecord
100
AcDbLayerTableRecord
  2
SILIK
 70
     0
 62
     7
  6
Continuous
370
    -3
390
F
  0
LAYER
  5
7C
330
2
100
AcDbSymbolTableRecord
100
AcDbLayerTableRecord
  2
MODEL
 70
     0
 62
     7
  6
Continuous
370
    -3
390
F
  0
LAYER
  5
7D
330
2
100
AcDbSymbolTableRecord
100
AcDbLayerTableRecord
  2
DETAYLANDıRMA
 70
     0
 62
   190
  6
Continuous
370
    -3
390
F
  0
LAYER
  5
7E
330
2
100
AcDbSymbolTableRecord
100
AcDbLayerTableRecord
  2
TOLERANS
 70
     0
 62
   230
  6
Continuous
370
    -3
390
F
  0
LAYER
  5
7F
330
2
100
AcDbSymbolTableRecord
100
AcDbLayerTableRecord
  2
MERKEZ_CIZGILERI
 70
     0
 62
    30
  6
Continuous
370
    -3
390
F
  0
LAYER
  5
80
330
2
100
AcDbSymbolTableRecord
100
AcDbLayerTableRecord
  2
KESIT-DETAY_CIZGILERI
 70
     0
 62
     7
  6
Continuous
370
    -3
390
F
  0
LAYER
  5
81
330
2
100
AcDbSymbolTableRecord
100
AcDbLayerTableRecord
  2
\U+041E\U+0421\U+0415\U+0412\U+042B\U+0415
 70
     0
 62
     7
  6
Continuous
370
    -3
390
F
  0
LAYER
  5
82
330
2
100
AcDbSymbolTableRecord
100
AcDbLayerTableRecord
  2
\U+0412\U+041E\U+0414\U+042F\U+041D\U+042B\U+0415_\U+0417\U+041D\U+0410\U+041A\U+0418
 70
     0
 62
    11
  6
Continuous
370
    -3
390
F
  0
ENDTAB
  0
TABLE
  2
STYLE
  5
3
330
0
100
AcDbSymbolTable
 70
     1
  0
STYLE
  5
11
330
3
100
AcDbSymbolTableRecord
100
AcDbTextStyleTableRecord
  2
Standard
 70
     0
 40
0.0
 41
1.0
 50
0.0
 71
     0
 42
3.5
  3
txt
  4

  0
ENDTAB
  0
TABLE
  2
VIEW
  5
6
330
0
100
AcDbSymbolTable
 70
     0
  0
ENDTAB
  0
TABLE
  2
UCS
  5
7
330
0
100
AcDbSymbolTable
 70
     0
  0
ENDTAB
  0
TABLE
  2
APPID
  5
9
330
0
100
AcDbSymbolTable
 70
     1
  0
APPID
  5
12
330
9
100
AcDbSymbolTableRecord
100
AcDbRegAppTableRecord
  2
ACAD
 70
     0
  0
ENDTAB
  0
TABLE
  2
DIMSTYLE
  5
A
330
0
100
AcDbSymbolTable
 70
     1
100
AcDbDimStyleTable
  0
DIMSTYLE
105
27
330
A
100
AcDbSymbolTableRecord
100
AcDbDimStyleTableRecord
  2
ISO-25
 70
     0
 41
2.5
 42
0.625
 43
3.75
 44
1.25
 73
     0
 74
     0
 77
     1
 78
     8
140
2.5
141
2.5
143
0.0393700787
147
0.625
171
     3
172
     1
178
     0
271
     2
272
     2
274
     3
278
    44
283
     0
284
     8
340
11
  0
ENDTAB
  0
TABLE
  2
BLOCK_RECORD
  5
1
330
0
100
AcDbSymbolTable
 70
     2
  0
BLOCK_RECORD
  5
1F
330
1
100
AcDbSymbolTableRecord
100
AcDbBlockTableRecord
  2
*Model_Space
340
22
  0
BLOCK_RECORD
  5
1B
330
1
100
AcDbSymbolTableRecord
100
AcDbBlockTableRecord
  2
*Paper_Space
340
1E
  0
BLOCK_RECORD
  5
23
330
1
100
AcDbSymbolTableRecord
100
AcDbBlockTableRecord
  2
*Paper_Space0
340
26
  0
BLOCK_RECORD
  5
88
330
1
100
AcDbSymbolTableRecord
100
AcDbBlockTableRecord
  2
SW_CENTERMARKSYMBOL_0
340
0
102
{BLKREFS
331
93
102
}
  0
ENDTAB
  0
ENDSEC
  0
SECTION
  2
BLOCKS
  0
BLOCK
  5
20
330
1F
100
AcDbEntity
  8
0
100
AcDbBlockBegin
  2
*Model_Space
 70
     0
 10
0.0
 20
0.0
 30
0.0
  3
*Model_Space
  1

  0
ENDBLK
  5
21
330
1F
100
AcDbEntity
  8
0
100
AcDbBlockEnd
  0
BLOCK
  5
1C
330
1B
100
AcDbEntity
 67
     1
  8
0
100
AcDbBlockBegin
  2
*Paper_Space
 70
     0
 10
0.0
 20
0.0
 30
0.0
  3
*Paper_Space
  1

  0
ENDBLK
  5
1D
330
1B
100
AcDbEntity
 67
     1
  8
0
100
AcDbBlockEnd
  0
BLOCK
  5
24
330
23
100
AcDbEntity
  8
0
100
AcDbBlockBegin
  2
*Paper_Space0
 70
     0
 10
0.0
 20
0.0
 30
0.0
  3
*Paper_Space0
  1

  0
ENDBLK
  5
25
330
23
100
AcDbEntity
  8
0
100
AcDbBlockEnd
  0
BLOCK
  5
89
330
88
100
AcDbEntity
  8
0
100
AcDbBlockBegin
  2
SW_CENTERMARKSYMBOL_0
 70
     0
 10
0.0
 20
0.0
 30
0.0
  3
SW_CENTERMARKSYMBOL_0
  1

  0
LINE
  5
8B
330
88
100
AcDbEntity
  8
FORMAT
 62
     0
100
AcDbLine
 10
0.0
 20
0.0
 30
0.0
 11
0.0
 21
2.5
 31
0.0
  0
LINE
  5
8C
330
88
100
AcDbEntity
  8
FORMAT
 62
     0
100
AcDbLine
 10
0.0
 20
0.0
 30
0.0
 11
-2.5
 21
0.0
 31
0.0
  0
LINE
  5
8D
330
88
100
AcDbEntity
  8
FORMAT
 62
     0
100
AcDbLine
 10
0.0
 20
0.0
 30
0.0
 11
0.0
 21
-2.5
 31
0.0
  0
LINE
  5
8E
330
88
100
AcDbEntity
  8
FORMAT
 62
     0
100
AcDbLine
 10
0.0
 20
0.0
 30
0.0
 11
2.5
 21
0.0
 31
0.0
  0
LINE
  5
8F
330
88
100
AcDbEntity
  8
FORMAT
 62
     0
100
AcDbLine
 10
0.0
 20
5.0
 30
0.0
 11
0.0
 21
72.5
 31
0.0
  0
LINE
  5
90
330
88
100
AcDbEntity
  8
FORMAT
 62
     0
100
AcDbLine
 10
-5.0
 20
0.0
 30
0.0
 11
-72.5
 21
0.0
 31
0.0
  0
LINE
  5
91
330
88
100
AcDbEntity
  8
FORMAT
 62
     0
100
AcDbLine
 10
0.0
 20
-5.0
 30
0.0
 11
0.0
 21
-72.5
 31
0.0
  0
LINE
  5
92
330
88
100
AcDbEntity
  8
FORMAT
 62
     0
100
AcDbLine
 10
5.0
 20
0.0
 30
0.0
 11
72.5
 21
0.0
 31
0.0
  0
ENDBLK
  5
8A
330
88
100
AcDbEntity
  8
0
100
AcDbBlockEnd
  0
ENDSEC
  0
SECTION
  2
ENTITIES
  0
CIRCLE
  5
83
330
1F
100
AcDbEntity
  8
0
  6
Continuous
 62
     7
370
    25
100
AcDbCircle
 10
136.0804557792
 20
118.8813202377
 30
0.0
 40
70.00000000000001
  0
CIRCLE
  5
84
330
1F
100
AcDbEntity
  8
0
  6
Continuous
 62
     7
370
    25
100
AcDbCircle
 10
136.0804557792
 20
118.8813202377
 30
0.0
 40
61.7
  0
CIRCLE
  5
85
330
1F
100
AcDbEntity
  8
0
  6
Continuous
 62
     7
370
    25
100
AcDbCircle
 10
136.0804557792
 20
118.8813202377
 30
0.0
 40
61.1435668447953
  0
CIRCLE
  5
86
330
1F
100
AcDbEntity
  8
0
  6
Continuous
 62
     7
370
    25
100
AcDbCircle
 10
136.0804557792
 20
118.8813202377
 30
0.0
 40
33.55643315520474
  0
CIRCLE
  5
87
330
1F
100
AcDbEntity
  8
0
  6
Continuous
 62
     7
370
    25
100
AcDbCircle
 10
136.0804557792
 20
118.8813202377
 30
0.0
 40
33.0
  0
INSERT
  5
93
330
1F
100
AcDbEntity
  8
FORMAT
 62
     7
100
AcDbBlockReference
  2
SW_CENTERMARKSYMBOL_0
 10
136.0804557792
 20
118.8813202377
 30
0.0
  0
ARC
  5
94
330
1F
100
AcDbEntity
  8
0
  6
Continuous
 62
     7
370
    25
100
AcDbCircle
 10
-127.1290414419
 20
186.8813202377
 30
0.0
 40
2.000000000000004
100
AcDbArc
 50
62.7120120545
 51
90.0
  0
ARC
  5
95
330
1F
100
AcDbEntity
  8
0
  6
Continuous
 62
     7
370
    25
100
AcDbCircle
 10
-127.1290414419
 20
50.8813202377
 30
0.0
 40
2.000000000000007
100
AcDbArc
 50
270.0
 51
297.2879879455
  0
LINE
  5
96
330
1F
100
AcDbEntity
  8
0
  6
Continuous
 62
     7
370
    25
100
AcDbLine
 10
-127.1290410228
 20
188.8813205357
 30
0.0
 11
-218.6435632326
 21
188.8813205357
 31
0.0
  0
LINE
  5
97
330
1F
100
AcDbEntity
  8
0
  6
Continuous
 62
     7
370
    25
100
AcDbLine
 10
-218.6435632326
 20
48.8813199397
 30
0.0
 11
-127.1290410228
 21
48.8813199397
 31
0.0
  0
LINE
  5
98
330
1F
100
AcDbEntity
  8
0
  6
Continuous
 62
     7
370
    25
100
AcDbLine
 10
-126.2121148326
 20
49.1038911339
 30
0.0
 11
-64.075013987
 21
81.1587475534
 31
0.0
  0
LINE
  5
99
330
1F
100
AcDbEntity
  8
0
  6
Continuous
 62
     7
370
    25
100
AcDbLine
 10
-64.075013987
 20
156.603892922
 30
0.0
 11
-126.2121148326
 21
188.6587493416
 31
0.0
  0
ARC
  5
9A
330
1F
100
AcDbEntity
  8
0
  6
Continuous
 62
     7
370
    25
100
AcDbCircle
 10
-63.1580878744
 20
158.3813202377
 30
0.0
 40
2.000000000000008
100
AcDbArc
 50
242.7120120545
 51
270.0
  0
ARC
  5
9B
330
1F
100
AcDbEntity
  8
0
  6
Continuous
 62
     7
370
    25
100
AcDbCircle
 10
-63.1580878744
 20
79.3813202377
 30
0.0
 40
2.0
100
AcDbArc
 50
90.0
 51
117.2879879455
  0
LINE
  5
9C
330
1F
100
AcDbEntity
  8
0
  6
Continuous
 62
     7
370
    25
100
AcDbLine
 10
6.3564382575
 20
156.3813217278
 30
0.0
 11
-63.1580896594
 21
156.3813217278
 31
0.0
  0
LINE
  5
9D
330
1F
100
AcDbEntity
  8
0
  6
Continuous
 62
     7
370
    25
100
AcDbLine
 10
-63.1580896594
 20
81.3813187476
 30
0.0
 11
6.3564382575
 21
81.3813187476
 31
0.0
  0
LINE
  5
9E
330
1F
100
AcDbEntity
  8
0
  6
Continuous
 62
     7
370
    25
100
AcDbLine
 10
-218.6435632326
 20
188.8813205357
 30
0.0
 11
-218.6435632326
 21
48.8813199397
 31
0.0
  0
LINE
  5
9F
330
1F
100
AcDbEntity
  8
0
  6
Continuous
 62
     7
370
    25
100
AcDbLine
 10
6.3564382575
 20
156.3813217278
 30
0.0
 11
6.3564382575
 21
81.3813187476
 31
0.0
  0
LINE
  5
A0
330
1F
100
AcDbEntity
  8
0
  6
Continuous
 62
     1
370
    25
100
AcDbLine
 10
-126.2121148326
 20
188.6587493416
 30
0.0
 11
-126.2121148326
 21
49.1038911339
 31
0.0
  0
LINE
  5
A1
330
1F
100
AcDbEntity
  8
0
  6
Continuous
 62
     1
370
    25
100
AcDbLine
 10
-127.1290410228
 20
188.8813205357
 30
0.0
 11
-127.1290410228
 21
48.8813199397
 31
0.0
  0
LINE
  5
A2
330
1F
100
AcDbEntity
  8
0
  6
Continuous
 62
     1
370
    25
100
AcDbLine
 10
-64.075013987
 20
156.603892922
 30
0.0
 11
-64.075013987
 21
81.1587475534
 31
0.0
  0
LINE
  5
A3
330
1F
100
AcDbEntity
  8
0
  6
Continuous
 62
     1
370
    25
100
AcDbLine
 10
-63.1580896594
 20
156.3813217278
 30
0.0
 11
-63.1580896594
 21
81.3813187476
 31
0.0
  0
ARC
  5
A4
330
1F
100
AcDbEntity
  8
0
  6
Continuous
 62
     7
370
    25
100
AcDbCircle
 10
204.0804557792
 20
364.2717583943
 30
0.0
 40
2.000000000000004
100
AcDbArc
 50
332.7120120545
 51
0.0
  0
ARC
  5
A5
330
1F
100
AcDbEntity
  8
0
  6
Continuous
 62
     7
370
    25
100
AcDbCircle
 10
68.0804557792
 20
364.2717583943
 30
0.0
 40
2.0
100
AcDbArc
 50
180.0
 51
207.2879879455
  0
LINE
  5
A6
330
1F
100
AcDbEntity
  8
0
  6
Continuous
 62
     7
370
    25
100
AcDbLine
 10
206.0804560772
 20
364.2717579752
 30
0.0
 11
206.0804560772
 21
455.786280185
 31
0.0
  0
LINE
  5
A7
330
1F
100
AcDbEntity
  8
0
  6
Continuous
 62
     7
370
    25
100
AcDbLine
 10
66.0804554812
 20
455.786280185
 30
0.0
 11
66.0804554812
 21
364.2717579752
 31
0.0
  0
LINE
  5
A8
330
1F
100
AcDbEntity
  8
0
  6
Continuous
 62
     7
370
    25
100
AcDbLine
 10
66.3030266753
 20
363.3548317849
 30
0.0
 11
98.3578830949
 21
301.2177309394
 31
0.0
  0
LINE
  5
A9
330
1F
100
AcDbEntity
  8
0
  6
Continuous
 62
     7
370
    25
100
AcDbLine
 10
173.8030284635
 20
301.2177309394
 30
0.0
 11
205.857884883
 21
363.3548317849
 31
0.0
  0
ARC
  5
AA
330
1F
100
AcDbEntity
  8
0
  6
Continuous
 62
     7
370
    25
100
AcDbCircle
 10
175.5804557792
 20
300.3008048268
 30
0.0
 40
2.000000000000004
100
AcDbArc
 50
152.7120120545
 51
180.0
  0
ARC
  5
AB
330
1F
100
AcDbEntity
  8
0
  6
Continuous
 62
     7
370
    25
100
AcDbCircle
 10
96.5804557792
 20
300.3008048268
 30
0.0
 40
2.000000000000004
100
AcDbArc
 50
0.0
 51
27.2879879455
  0
LINE
  5
AC
330
1F
100
AcDbEntity
  8
0
  6
Continuous
 62
     7
370
    25
100
AcDbLine
 10
173.5804572693
 20
230.7862786948
 30
0.0
 11
173.5804572693
 21
300.3008066117
 31
0.0
  0
LINE
  5
AD
330
1F
100
AcDbEntity
  8
0
  6
Continuous
 62
     7
370
    25
100
AcDbLine
 10
98.5804542891
 20
300.3008066117
 30
0.0
 11
98.5804542891
 21
230.7862786948
 31
0.0
  0
LINE
  5
AE
330
1F
100
AcDbEntity
  8
0
  6
Continuous
 62
     7
370
    25
100
AcDbLine
 10
206.0804560772
 20
455.786280185
 30
0.0
 11
66.0804554812
 21
455.786280185
 31
0.0
  0
LINE
  5
AF
330
1F
100
AcDbEntity
  8
0
  6
Continuous
 62
     7
370
    25
100
AcDbLine
 10
173.5804572693
 20
230.7862786948
 30
0.0
 11
98.5804542891
 21
230.7862786948
 31
0.0
  0
LINE
  5
B0
330
1F
100
AcDbEntity
  8
0
  6
Continuous
 62
     1
370
    25
100
AcDbLine
 10
205.857884883
 20
363.3548317849
 30
0.0
 11
66.3030266753
 21
363.3548317849
 31
0.0
  0
LINE
  5
B1
330
1F
100
AcDbEntity
  8
0
  6
Continuous
 62
     1
370
    25
100
AcDbLine
 10
206.0804560772
 20
364.2717579752
 30
0.0
 11
66.0804554812
 21
364.2717579752
 31
0.0
  0
LINE
  5
B2
330
1F
100
AcDbEntity
  8
0
  6
Continuous
 62
     1
370
    25
100
AcDbLine
 10
173.8030284635
 20
301.2177309394
 30
0.0
 11
98.3578830949
 21
301.2177309394
 31
0.0
  0
LINE
  5
B3
330
1F
100
AcDbEntity
  8
0
  6
Continuous
 62
     1
370
    25
100
AcDbLine
 10
173.5804572693
 20
300.3008066117
 30
0.0
 11
98.5804542891
 21
300.3008066117
 31
0.0
  0
ARC
  5
B4
330
1F
100
AcDbEntity
  8
0
  6
Continuous
 62
     7
370
    25
100
AcDbCircle
 10
402.0587710962
 20
50.8813202377
 30
0.0
 40
2.000000000000007
100
AcDbArc
 50
242.7120120545
 51
270.0
  0
ARC
  5
B5
330
1F
100
AcDbEntity
  8
0
  6
Continuous
 62
     7
370
    25
100
AcDbCircle
 10
402.0587710962
 20
186.8813202377
 30
0.0
 40
2.000000000000004
100
AcDbArc
 50
90.0
 51
117.2879879455
  0
LINE
  5
B6
330
1F
100
AcDbEntity
  8
0
  6
Continuous
 62
     7
370
    25
100
AcDbLine
 10
402.0587706771
 20
48.8813199397
 30
0.0
 11
493.5732928869
 21
48.8813199397
 31
0.0
  0
LINE
  5
B7
330
1F
100
AcDbEntity
  8
0
  6
Continuous
 62
     7
370
    25
100
AcDbLine
 10
493.5732928869
 20
188.8813205357
 30
0.0
 11
402.0587706771
 21
188.8813205357
 31
0.0
  0
LINE
  5
B8
330
1F
100
AcDbEntity
  8
0
  6
Continuous
 62
     7
370
    25
100
AcDbLine
 10
401.1418444869
 20
188.6587493416
 30
0.0
 11
339.0047436413
 21
156.603892922
 31
0.0
  0
LINE
  5
B9
330
1F
100
AcDbEntity
  8
0
  6
Continuous
 62
     7
370
    25
100
AcDbLine
 10
339.0047436413
 20
81.1587475534
 30
0.0
 11
401.1418444869
 21
49.1038911339
 31
0.0
  0
ARC
  5
BA
330
1F
100
AcDbEntity
  8
0
  6
Continuous
 62
     7
370
    25
100
AcDbCircle
 10
338.0878175287
 20
79.3813202377
 30
0.0
 40
2.0
100
AcDbArc
 50
62.7120120545
 51
90.0
  0
ARC
  5
BB
330
1F
100
AcDbEntity
  8
0
  6
Continuous
 62
     7
370
    25
100
AcDbCircle
 10
338.0878175287
 20
158.3813202377
 30
0.0
 40
2.000000000000004
100
AcDbArc
 50
270.0
 51
297.2879879455
  0
LINE
  5
BC
330
1F
100
AcDbEntity
  8
0
  6
Continuous
 62
     7
370
    25
100
AcDbLine
 10
268.5732913968
 20
81.3813187476
 30
0.0
 11
338.0878193137
 21
81.3813187476
 31
0.0
  0
LINE
  5
BD
330
1F
100
AcDbEntity
  8
0
  6
Continuous
 62
     7
370
    25
100
AcDbLine
 10
338.0878193137
 20
156.3813217278
 30
0.0
 11
268.5732913968
 21
156.3813217278
 31
0.0
  0
LINE
  5
BE
330
1F
100
AcDbEntity
  8
0
  6
Continuous
 62
     7
370
    25
100
AcDbLine
 10
493.5732928869
 20
118.8813202377
 30
0.0
 11
493.5732928869
 21
188.8813205357
 31
0.0
  0
LINE
  5
BF
330
1F
100
AcDbEntity
  8
0
  6
Continuous
 62
     7
370
    25
100
AcDbLine
 10
493.5732928869
 20
48.8813199397
 30
0.0
 11
493.5732928869
 21
118.8813202377
 31
0.0
  0
LINE
  5
C0
330
1F
100
AcDbEntity
  8
0
  6
Continuous
 62
     7
370
    25
100
AcDbLine
 10
268.5732913968
 20
118.8813202377
 30
0.0
 11
268.5732913968
 21
156.3813217278
 31
0.0
  0
LINE
  5
C1
330
1F
100
AcDbEntity
  8
0
  6
Continuous
 62
     7
370
    25
100
AcDbLine
 10
268.5732913968
 20
81.3813187476
 30
0.0
 11
268.5732913968
 21
118.8813202377
 31
0.0
  0
LINE
  5
C2
330
1F
100
AcDbEntity
  8
0
  6
Continuous
 62
     1
370
    25
100
AcDbLine
 10
401.1418444869
 20
118.8813202377
 30
0.0
 11
401.1418444869
 21
188.6587493416
 31
0.0
  0
LINE
  5
C3
330
1F
100
AcDbEntity
  8
0
  6
Continuous
 62
     1
370
    25
100
AcDbLine
 10
401.1418444869
 20
49.1038911339
 30
0.0
 11
401.1418444869
 21
118.8813202377
 31
0.0
  0
LINE
  5
C4
330
1F
100
AcDbEntity
  8
0
  6
Continuous
 62
     1
370
    25
100
AcDbLine
 10
402.0587706771
 20
118.8813202377
 30
0.0
 11
402.0587706771
 21
188.8813205357
 31
0.0
  0
LINE
  5
C5
330
1F
100
AcDbEntity
  8
0
  6
Continuous
 62
     1
370
    25
100
AcDbLine
 10
402.0587706771
 20
48.8813199397
 30
0.0
 11
402.0587706771
 21
118.8813202377
 31
0.0
  0
LINE
  5
C6
330
1F
100
AcDbEntity
  8
0
  6
Continuous
 62
     1
370
    25
100
AcDbLine
 10
339.0047436413
 20
118.8813202377
 30
0.0
 11
339.0047436413
 21
156.603892922
 31
0.0
  0
LINE
  5
C7
330
1F
100
AcDbEntity
  8
0
  6
Continuous
 62
     1
370
    25
100
AcDbLine
 10
339.0047436413
 20
81.1587475534
 30
0.0
 11
339.0047436413
 21
118.8813202377
 31
0.0
  0
LINE
  5
C8
330
1F
100
AcDbEntity
  8
0
  6
Continuous
 62
     1
370
    25
100
AcDbLine
 10
338.0878193137
 20
118.8813202377
 30
0.0
 11
338.0878193137
 21
156.3813217278
 31
0.0
  0
LINE
  5
C9
330
1F
100
AcDbEntity
  8
0
  6
Continuous
 62
     1
370
    25
100
AcDbLine
 10
338.0878193137
 20
81.3813187476
 30
0.0
 11
338.0878193137
 21
118.8813202377
 31
0.0
  0
ARC
  5
CA
330
1F
100
AcDbEntity
  8
0
  6
Continuous
 62
     7
370
    25
100
AcDbCircle
 10
68.0804557792
 20
-156.3453394314
 30
0.0
 40
2.0
100
AcDbArc
 50
152.7120120545
 51
180.0
  0
ARC
  5
CB
330
1F
100
AcDbEntity
  8
0
  6
Continuous
 62
     7
370
    25
100
AcDbCircle
 10
204.0804557792
 20
-156.3453394314
 30
0.0
 40
2.000000000000004
100
AcDbArc
 50
0.0
 51
27.2879879455
  0
LINE
  5
CC
330
1F
100
AcDbEntity
  8
0
  6
Continuous
 62
     7
370
    25
100
AcDbLine
 10
66.0804554812
 20
-156.3453390124
 30
0.0
 11
66.0804554812
 21
-247.8598612221
 31
0.0
  0
LINE
  5
CD
330
1F
100
AcDbEntity
  8
0
  6
Continuous
 62
     7
370
    25
100
AcDbLine
 10
206.0804560772
 20
-247.8598612221
 30
0.0
 11
206.0804560772
 21
-156.3453390124
 31
0.0
  0
LINE
  5
CE
330
1F
100
AcDbEntity
  8
0
  6
Continuous
 62
     7
370
    25
100
AcDbLine
 10
205.857884883
 20
-155.4284128221
 30
0.0
 11
173.8030284635
 21
-93.2913119765
 31
0.0
  0
LINE
  5
CF
330
1F
100
AcDbEntity
  8
0
  6
Continuous
 62
     7
370
    25
100
AcDbLine
 10
98.3578830949
 20
-93.2913119765
 30
0.0
 11
66.3030266753
 21
-155.4284128221
 31
0.0
  0
ARC
  5
D0
330
1F
100
AcDbEntity
  8
0
  6
Continuous
 62
     7
370
    25
100
AcDbCircle
 10
96.5804557792
 20
-92.3743858639
 30
0.0
 40
2.000000000000011
100
AcDbArc
 50
332.7120120545
 51
0.0
  0
ARC
  5
D1
330
1F
100
AcDbEntity
  8
0
  6
Continuous
 62
     7
370
    25
100
AcDbCircle
 10
175.5804557792
 20
-92.3743858639
 30
0.0
 40
2.000000000000011
100
AcDbArc
 50
180.0
 51
207.2879879455
  0
LINE
  5
D2
330
1F
100
AcDbEntity
  8
0
  6
Continuous
 62
     7
370
    25
100
AcDbLine
 10
98.5804542891
 20
-22.859859732
 30
0.0
 11
98.5804542891
 21
-92.3743876489
 31
0.0
  0
LINE
  5
D3
330
1F
100
AcDbEntity
  8
0
  6
Continuous
 62
     7
370
    25
100
AcDbLine
 10
173.5804572693
 20
-92.3743876489
 30
0.0
 11
173.5804572693
 21
-22.859859732
 31
0.0
  0
LINE
  5
D4
330
1F
100
AcDbEntity
  8
0
  6
Continuous
 62
     7
370
    25
100
AcDbLine
 10
66.0804554812
 20
-247.8598612221
 30
0.0
 11
206.0804560772
 21
-247.8598612221
 31
0.0
  0
LINE
  5
D5
330
1F
100
AcDbEntity
  8
0
  6
Continuous
 62
     7
370
    25
100
AcDbLine
 10
98.5804542891
 20
-22.859859732
 30
0.0
 11
173.5804572693
 21
-22.859859732
 31
0.0
  0
LINE
  5
D6
330
1F
100
AcDbEntity
  8
0
  6
Continuous
 62
     1
370
    25
100
AcDbLine
 10
66.3030266753
 20
-155.4284128221
 30
0.0
 11
205.857884883
 21
-155.4284128221
 31
0.0
  0
LINE
  5
D7
330
1F
100
AcDbEntity
  8
0
  6
Continuous
 62
     1
370
    25
100
AcDbLine
 10
66.0804554812
 20
-156.3453390124
 30
0.0
 11
206.0804560772
 21
-156.3453390124
 31
0.0
  0
LINE
  5
D8
330
1F
100
AcDbEntity
  8
0
  6
Continuous
 62
     1
370
    25
100
AcDbLine
 10
98.3578830949
 20
-93.2913119765
 30
0.0
 11
173.8030284635
 21
-93.2913119765
 31
0.0
  0
LINE
  5
D9
330
1F
100
AcDbEntity
  8
0
  6
Continuous
 62
     1
370
    25
100
AcDbLine
 10
98.5804542891
 20
-92.3743876489
 30
0.0
 11
173.5804572693
 21
-92.3743876489
 31
0.0
  0
LINE
  5
DA
330
1F
100
AcDbEntity
  8
0
  6
Continuous
 62
     7
370
    25
100
AcDbLine
 10
405.4130594122
 20
-64.9731258805
 30
0.0
 11
340.7025201806
 21
-27.6165267397
 31
0.0
  0
LINE
  5
DB
330
1F
100
AcDbEntity
  8
0
  6
Continuous
 62
     7
370
    25
100
AcDbLine
 10
270.7082109925
 20
-148.8633669372
 30
0.0
 11
335.418750224
 21
-186.219966078
 31
0.0
  0
SPLINE
  5
DC
330
1F
100
AcDbEntity
  8
0
  6
Continuous
 62
     7
370
    25
100
AcDbSpline
210
0.0
220
0.0
230
1.0
 70
     8
 71
     3
 72
    13
 73
     9
 74
     0
 42
0.000000001
 43
0.00000001
 40
0.0
 40
0.0
 40
0.0
 40
0.0
 40
0.0504385615899099
 40
0.2673967045165401
 40
0.483518095365726
 40
0.6987899741978837
 40
0.9132714540386646
 40
1.0
 40
1.0
 40
1.0
 40
1.0
 10
414.710114187224
 20
-74.22089116558374
 30
0.0
 10
414.6193560160283
 20
-74.06396414025788
 30
0.0
 10
414.1382075629261
 20
-73.23202587518819
 30
0.0
 10
413.1461142338528
 20
-71.85854377062543
 30
0.0
 10
411.7366140143702
 20
-70.11244245795623
 30
0.0
 10
410.2012088657742
 20
-68.53735484306131
 30
0.0
 10
408.9064179158812
 20
-67.36593836293274
 30
0.0
 10
408.0879708042825
 20
-66.77773572060147
 30
0.0
 10
407.8523122210524
 20
-66.60837230129243
 30
0.0
  0
SPLINE
  5
DD
330
1F
100
AcDbEntity
  8
0
  6
Continuous
 62
     7
370
    25
100
AcDbSpline
210
0.0
220
0.0
230
1.0
 70
     8
 71
     3
 72
    12
 73
     8
 74
     0
 42
0.000000001
 43
0.00000001
 40
0.0
 40
0.0
 40
0.0
 40
0.0
 40
0.1756812944350628
 40
0.4097145568365149
 40
0.6442737997257
 40
0.8795581088819191
 40
1.0
 40
1.0
 40
1.0
 40
1.0
 10
338.1808294532134
 20
-187.5737988312157
 30
0.0
 10
338.6769068674636
 20
-187.7796613124965
 30
0.0
 10
339.833832188339
 20
-188.2597628256282
 30
0.0
 10
341.745026530849
 20
-188.8217628534882
 30
0.0
 10
343.8960013674591
 20
-189.2791942978793
 30
0.0
 10
345.7467948905403
 20
-189.5435851575297
 30
0.0
 10
346.898221539977
 20
-189.5925441148008
 30
0.0
 10
347.2880719446842
 20
-189.6091206542752
 30
0.0
  0
LINE
  5
DE
330
1F
100
AcDbEntity
  8
0
  6
Continuous
 62
     7
370
    25
100
AcDbLine
 10
351.3112941997
 20
-189.5849192908
 30
0.0
 11
404.3231228119
 21
-185.7260452062
 31
0.0
  0
LINE
  5
DF
330
1F
100
AcDbEntity
  8
0
  6
Continuous
 62
     7
370
    25
100
AcDbLine
 10
439.44312164
 20
-124.8898313604
 30
0.0
 11
416.2746038869
 21
-77.0529763949
 31
0.0
  0
LINE
  5
E0
330
1F
100
AcDbEntity
  8
0
  6
Continuous
 62
     7
370
    25
100
AcDbLine
 10
483.5528687411
 20
-147.6090271249
 30
0.0
 11
437.5977995862
 21
-121.0797303937
 31
0.0
  0
LINE
  5
E1
330
1F
100
AcDbEntity
  8
0
  6
Continuous
 62
     7
370
    25
100
AcDbLine
 10
400.1008469183
 20
-186.0333961974
 30
0.0
 11
446.0559160732
 21
-212.5626929286
 31
0.0
  0
LWPOLYLINE
  5
E2
330
1F
100
AcDbEntity
  8
0
  6
Continuous
 62
     7
370
    25
100
AcDbPolyline
 90
      117
 70
   128
 43
0.0
 10
256.2078906928
 20
-116.8142308739
 10
256.280483371
 20
-113.6778600129
 10
256.498045403
 20
-110.4668766303
 10
256.8599445861
 20
-107.1906957674
 10
257.3651167123
 20
-103.858928625
 10
258.0120761053
 20
-100.4813500536
 10
258.7989261569
 20
-97.0678671857
 10
259.7233645954
 20
-93.6284867365
 10
260.7826729492
 20
-90.1733043563
 10
261.9737507906
 20
-86.7124491199
 10
263.2930999313
 20
-83.2560743995
 10
264.7368507638
 20
-79.8143183233
 10
266.3007701639
 20
-76.3972748786
 10
267.9802693935
 20
-73.0149695774
 10
269.7704225397
 20
-69.6773214356
 10
271.6659796856
 20
-66.3941201598
 10
273.6613800815
 20
-63.1749972512
 10
275.7507705838
 20
-60.0293940678
 10
277.9280240943
 20
-56.9665359705
 10
280.1867527313
 20
-53.9954095104
 10
282.5203315372
 20
-51.1247274495
 10
284.9219156001
 20
-48.3629097513
 10
287.3844611282
 20
-45.7180622892
 10
289.9007465223
 20
-43.197934263
 10
292.4633881814
 20
-40.8099273254
 10
295.0648714542
 20
-38.5610381709
 10
297.6975651268
 20
-36.4578623383
 10
300.3537471064
 20
-34.5065733013
 10
303.0256263175
 20
-32.7128976601
 10
305.7053655866
 20
-31.0820897631
 10
308.3851048556
 20
-29.6189365569
 10
311.0569840667
 20
-28.3277261246
 10
313.7131660463
 20
-27.2122527258
 10
316.3458597189
 20
-26.2757851446
 10
318.9473429917
 20
-25.5210656461
 10
321.5099846508
 20
-24.950309503
 10
324.0262700449
 20
-24.565196253
 10
326.488815573
 20
-24.3668491675
 10
328.890399636
 20
-24.3558569275
 10
331.2239784418
 20
-24.5322462488
 10
333.4827070788
 20
-24.8955001347
 10
335.6599605893
 20
-25.4445548366
 10
337.7493510916
 20
-26.1777990946
 10
339.7447514875
 20
-27.0930817447
 10
341.6403086334
 20
-28.1877193247
 10
343.4304617796
 20
-29.4585006384
 10
345.1099610092
 20
-30.9016974042
 10
346.6738804093
 20
-32.5130779442
 10
348.1176312418
 20
-34.2879147906
 10
349.4369803825
 20
-36.2210014172
 10
350.6280582239
 20
-38.3066674496
 10
351.6873665777
 20
-40.5387984379
 10
352.6118050162
 20
-42.9108449848
 10
353.3986550678
 20
-45.4158501207
 10
354.0456144608
 20
-48.0464652765
 10
354.550786587
 20
-50.794973097
 10
354.9126857701
 20
-53.653314057
 10
355.1302478021
 20
-56.6131056643
 10
355.2028404803
 20
-59.665662803
 10
355.1302478021
 20
-62.8020336639
 10
354.9126857701
 20
-66.0130170466
 10
354.550786587
 20
-69.2891979094
 10
354.0456144608
 20
-72.6209650519
 10
353.3986550678
 20
-75.9985436233
 10
352.6118050162
 20
-79.4120264912
 10
351.6873665777
 20
-82.8514069404
 10
350.6280582239
 20
-86.3065893206
 10
349.4369803825
 20
-89.767444557
 10
348.1176312418
 20
-93.2238192774
 10
346.6738804093
 20
-96.6655753536
 10
345.1099610092
 20
-100.0826187983
 10
343.4304617796
 20
-103.4649240995
 10
341.6403086334
 20
-106.8025722413
 10
339.7447514875
 20
-110.0857735171
 10
337.7493510916
 20
-113.3048964257
 10
335.6599605893
 20
-116.4504996091
 10
333.4827070788
 20
-119.5133577064
 10
331.2239784418
 20
-122.4844841665
 10
328.890399636
 20
-125.3551662274
 10
326.488815573
 20
-128.1169839256
 10
324.0262700449
 20
-130.7618313877
 10
321.5099846508
 20
-133.2819594139
 10
318.9473429917
 20
-135.6699663514
 10
316.3458597189
 20
-137.918855506
 10
313.7131660463
 20
-140.0220313386
 10
311.0569840667
 20
-141.9733203755
 10
308.3851048556
 20
-143.7669960167
 10
305.7053655866
 20
-145.3978039138
 10
303.0256263175
 20
-146.86095712
 10
300.3537471064
 20
-148.1521675523
 10
297.6975651268
 20
-149.2676409511
 10
295.0648714542
 20
-150.2041085323
 10
292.4633881814
 20
-150.9588280308
 10
289.9007465223
 20
-151.5295841739
 10
287.3844611282
 20
-151.9146974238
 10
284.9219156001
 20
-152.1130445094
 10
282.5203315372
 20
-152.1240367494
 10
280.1867527313
 20
-151.9476474281
 10
277.9280240943
 20
-151.5843935422
 10
275.7507705838
 20
-151.0353388403
 10
273.6613800815
 20
-150.3020945823
 10
271.6659796856
 20
-149.3868119322
 10
269.7704225397
 20
-148.2921743522
 10
267.9802693935
 20
-147.0213930385
 10
266.3007701639
 20
-145.5781962727
 10
264.7368507638
 20
-143.9668157327
 10
263.2930999313
 20
-142.1919788863
 10
261.9737507906
 20
-140.2588922597
 10
260.7826729492
 20
-138.1732262273
 10
259.7233645954
 20
-135.941095239
 10
258.7989261569
 20
-133.5690486921
 10
258.0120761053
 20
-131.0640435562
 10
257.3651167123
 20
-128.4334284004
 10
256.8599445861
 20
-125.6849205799
 10
256.498045403
 20
-122.8265796199
 10
256.280483371
 20
-119.8667880126
 10
256.2078906928
 20
-116.8142308739
  0
LWPOLYLINE
  5
E3
330
1F
100
AcDbEntity
  8
0
  6
Continuous
 62
     7
370
    25
100
AcDbPolyline
 90
      110
 70
   128
 43
0.0
 10
262.0768762264
 20
-113.4261376429
 10
262.1493424641
 20
-110.4817792775
 10
262.3664961985
 20
-107.4635365071
 10
262.7276156649
 20
-104.3814355869
 10
263.2315049464
 20
-101.2457133761
 10
263.8764860717
 20
-98.0667888192
 10
264.6604200882
 20
-94.8552192217
 10
265.5807017938
 20
-91.6216743942
 10
266.6342729078
 20
-88.3768948275
 10
267.8176352418
 20
-85.1316620362
 10
269.126855968
 20
-81.8967529314
 10
270.5575860584
 20
-78.6829170084
 10
272.1050734559
 20
-75.5008276785
 10
273.7641788792
 20
-72.3610564146
 10
275.5293889936
 20
-69.2740347292
 10
277.3948401189
 20
-66.2500161538
 10
279.3543366682
 20
-63.2990443009
 10
281.4013695877
 20
-60.4309209264
 10
283.5291374297
 20
-57.6551785549
 10
285.7305713774
 20
-54.9810386566
 10
287.9983602698
 20
-52.4173789498
 10
290.3249703577
 20
-49.9727189536
 10
292.7026716455
 20
-47.6551774052
 10
295.1235675262
 20
-45.4724551514
 10
297.5796151956
 20
-43.4318020711
 10
300.0626552873
 20
-41.5399969252
 10
302.5644398606
 20
-39.8033251163
 10
305.0766582897
 20
-38.2275546171
 10
307.5909653749
 20
-36.8179197425
 10
310.0990085906
 20
-35.5791054197
 10
312.5924563197
 20
-34.5152248047
 10
315.0630262126
 20
-33.6298089952
 10
317.5025108291
 20
-32.9258074369
 10
319.9028067791
 20
-32.405549808
 10
322.2559404055
 20
-32.0707707366
 10
324.554093468
 20
-31.9225797648
 10
326.7896334359
 20
-31.9614681961
 10
328.9551345611
 20
-32.1873090967
 10
331.0434002693
 20
-32.5993504541
 10
333.0474987211
 20
-33.196225066
 10
334.9607680801
 20
-33.9759474991
 10
336.7768520749
 20
-34.9359331042
 10
338.4897210718
 20
-36.0729858504
 10
340.0936826121
 20
-37.3833348285
 10
341.5834130221
 20
-38.8626220867
 10
342.9539574129
 20
-40.5059360905
 10
344.200766559
 20
-42.3078178107
 10
345.3196968983
 20
-44.2622820153
 10
346.3070316057
 20
-46.3628370443
 10
347.1594937637
 20
-48.6025015411
 10
347.8742489967
 20
-50.9738379124
 10
348.4489239103
 20
-53.4689683006
 10
348.8816087255
 20
-56.0796050019
 10
349.170865181
 20
-58.7970751821
 10
349.315734436
 20
-61.6123515817
 10
349.315734436
 20
-64.5160819826
 10
349.170865181
 20
-67.4986208637
 10
348.8816087255
 20
-70.5500594388
 10
348.4489239103
 20
-73.660263394
 10
347.8742489967
 20
-76.8188993144
 10
347.1594937637
 20
-80.0154745121
 10
346.3070316057
 20
-83.2393708664
 10
345.3196968983
 20
-86.4798782841
 10
344.200766559
 20
-89.7262319599
 10
342.9539574129
 20
-92.9676488787
 10
341.5834130221
 20
-96.1933597539
 10
340.0936826121
 20
-99.392653132
 10
338.4897210718
 20
-102.5548966859
 10
336.7768520749
 20
-105.6695858808
 10
334.9607680801
 20
-108.7263774344
 10
333.0474987211
 20
-111.7151136494
 10
331.0434002693
 20
-114.6258710813
 10
328.9551345611
 20
-117.4489727045
 10
326.7896334359
 20
-120.1750479854
 10
324.554093468
 20
-122.7950359232
 10
322.2559404055
 20
-125.3002359985
 10
319.9028067791
 20
-127.6823271819
 10
317.5025108291
 20
-129.9333922675
 10
315.0630262126
 20
-132.0459596951
 10
312.5924563197
 20
-134.0130031677
 10
310.0990085906
 20
-135.8279960222
 10
307.5909653749
 20
-137.4849067589
 10
305.0766582897
 20
-138.9782290538
 10
302.5644398606
 20
-140.3030042129
 10
300.0626552873
 20
-141.4548313889
 10
297.5796151956
 20
-142.4298833101
 10
295.1235675262
 20
-143.2249225095
 10
292.7026716455
 20
-143.837307144
 10
290.3249703577
 20
-144.2650010686
 10
287.9983602698
 20
-144.5065879015
 10
285.7305713774
 20
-144.561261517
 10
283.5291374297
 20
-144.4288431527
 10
281.4013695877
 20
-144.1097692399
 10
279.3543366682
 20
-143.6050997668
 10
277.3948401189
 20
-142.9165144735
 10
275.5293889936
 20
-142.0462999222
 10
273.7641788792
 20
-140.9973464535
 10
272.1050734559
 20
-139.7731375373
 10
270.5575860584
 20
-138.3777391258
 10
269.126855968
 20
-136.8157890039
 10
267.8176352418
 20
-135.0924739744
 10
266.6342729078
 20
-133.2135222518
 10
265.5807017938
 20
-131.1851700009
 10
264.6604200882
 20
-129.014159814
 10
263.8764860717
 20
-126.7077011662
 10
263.2315049464
 20
-124.2734559656
 10
262.7276156649
 20
-121.7195119357
 10
262.3664961985
 20
-119.0543506767
 10
262.1493424641
 20
-116.2868282713
 10
262.0768762264
 20
-113.4261376429
  0
LWPOLYLINE
  5
E4
330
1F
100
AcDbEntity
  8
0
  6
Continuous
 62
     7
370
    25
100
AcDbPolyline
 90
        3
 70
   128
 43
0.0
 10
405.4130594122
 20
-64.9731258805
 10
406.350847865
 20
-65.5443184655
 10
407.7328561986
 20
-66.5029036323
  0
LWPOLYLINE
  5
E5
330
1F
100
AcDbEntity
  8
0
  6
Continuous
 62
     7
370
    25
100
AcDbPolyline
 90
        3
 70
   128
 43
0.0
 10
338.0252272398
 20
-187.5155892245
 10
336.3765189172
 20
-186.743411073
 10
335.418750224
 20
-186.219966078
  0
ARC
  5
E6
330
1F
100
AcDbEntity
  8
0
  6
Continuous
 62
     7
370
    25
100
AcDbCircle
 10
384.9782202869
 20
-92.3059407195
 30
0.0
 40
34.8105652340786
100
AcDbArc
 50
16.3501278432
 51
31.121290709
  0
ARC
  5
E7
330
1F
100
AcDbEntity
  8
0
  6
Continuous
 62
     7
370
    25
100
AcDbCircle
 10
348.9905887089
 20
-155.9308481674
 30
0.0
 40
33.73416529638108
100
AcDbArc
 50
267.356552389
 51
283.3947535788
  0
LWPOLYLINE
  5
E8
330
1F
100
AcDbEntity
  8
0
  6
Continuous
 62
     7
370
    25
100
AcDbPolyline
 90
       45
 70
   128
 43
0.0
 10
483.5528687411
 20
-147.6090271249
 10
483.726839078
 20
-147.7113401567
 10
485.0470456437
 20
-148.6215259475
 10
486.2566944402
 20
-149.7035606544
 10
487.3491789492
 20
-150.9515318191
 10
488.3185301232
 20
-152.3586251339
 10
489.1594572156
 20
-153.9171533436
 10
489.8673635857
 20
-155.6186079579
 10
490.4383848944
 20
-157.4536934764
 10
490.8694022749
 20
-159.4123882263
 10
491.1580634061
 20
-161.4839934149
 10
491.3027877814
 20
-163.6571967232
 10
491.3027877814
 20
-165.9201272514
 10
491.1580634061
 20
-168.2604257665
 10
490.8694022749
 20
-170.6653120032
 10
490.4383848944
 20
-173.1216488281
 10
489.8673635857
 20
-175.6160215162
 10
489.1594572156
 20
-178.1348074281
 10
488.3185301232
 20
-180.6642493922
 10
487.3491789492
 20
-183.1905317499
 10
486.2566944402
 20
-185.6998586799
 10
485.0470456437
 20
-188.1785241592
 10
483.726839078
 20
-190.6129880055
 10
482.3032844885
 20
-192.9899580039
 10
480.7841566517
 20
-195.2964499801
 10
479.1777519112
 20
-197.5198661238
 10
477.4928460312
 20
-199.6480649475
 10
475.7386401955
 20
-201.669421358
 10
473.9247155682
 20
-203.5728954737
 10
472.0609779758
 20
-205.3480934568
 10
470.1576081871
 20
-206.9853175092
 10
468.2250006686
 20
-208.4756225207
 10
466.2737110655
 20
-209.8108768063
 10
464.3143964391
 20
-210.9837813977
 10
462.3577581376
 20
-211.9879303991
 10
460.4144823627
 20
-212.8178452979
 10
458.4951830409
 20
-213.4689866513
 10
456.6103417311
 20
-213.9378009441
 10
454.7702544476
 20
-214.2217299947
 10
452.984969921
 20
-214.3192192192
 10
451.2642379027
 20
-214.2297383492
 10
449.6174591155
 20
-213.9537738221
 10
448.0536253262
 20
-213.4928344798
 10
446.581277857
 20
-212.8494405373
 10
446.0559160732
 20
-212.5626929286
  0
LWPOLYLINE
  5
E9
330
1F
100
AcDbEntity
  8
0
  6
Continuous
 62
     1
370
    25
100
AcDbPolyline
 90
       58
 70
   128
 43
0.0
 10
407.7328561986
 20
-66.5029036323
 10
408.1410010112
 20
-66.8150997792
 10
409.8205002408
 20
-68.258296545
 10
411.3844196409
 20
-69.869677085
 10
412.8281704733
 20
-71.6445139314
 10
414.1475196141
 20
-73.577600558
 10
415.3385974555
 20
-75.6632665904
 10
416.3979058093
 20
-77.8953975787
 10
417.3223442478
 20
-80.2674441256
 10
418.1091942994
 20
-82.7724492615
 10
418.7561536924
 20
-85.4030644173
 10
419.2613258186
 20
-88.1515722378
 10
419.6232250017
 20
-91.0099131978
 10
419.8407870337
 20
-93.9697048051
 10
419.9133797119
 20
-97.0222619438
 10
419.8407870337
 20
-100.1586328048
 10
419.6232250017
 20
-103.3696161874
 10
419.2613258186
 20
-106.6457970503
 10
418.7561536924
 20
-109.9775641927
 10
418.1091942994
 20
-113.3551427641
 10
417.3223442478
 20
-116.768625632
 10
416.3979058093
 20
-120.2080060812
 10
415.3385974555
 20
-123.6631884614
 10
414.1475196141
 20
-127.1240436978
 10
412.8281704733
 20
-130.5804184182
 10
411.3844196409
 20
-134.0221744944
 10
409.8205002408
 20
-137.4392179391
 10
408.1410010112
 20
-140.8215232403
 10
406.350847865
 20
-144.1591713821
 10
404.4552907191
 20
-147.4423726579
 10
402.4598903232
 20
-150.6614955665
 10
400.3704998209
 20
-153.8070987499
 10
398.1932463104
 20
-156.8699568472
 10
395.9345176733
 20
-159.8410833073
 10
393.6009388675
 20
-162.7117653682
 10
391.1993548045
 20
-165.4735830664
 10
388.7368092765
 20
-168.1184305285
 10
386.2205238824
 20
-170.6385585547
 10
383.6578822232
 20
-173.0265654923
 10
381.0563989505
 20
-175.2754546468
 10
378.4237052779
 20
-177.3786304794
 10
375.7675232983
 20
-179.3299195164
 10
373.0956440872
 20
-181.1235951576
 10
370.4159048181
 20
-182.7544030546
 10
367.736165549
 20
-184.2175562608
 10
365.0642863379
 20
-185.5087666931
 10
362.4081043584
 20
-186.6242400919
 10
359.7754106858
 20
-187.5607076731
 10
357.173927413
 20
-188.3154271716
 10
354.6112857539
 20
-188.8861833147
 10
352.0950003598
 20
-189.2712965647
 10
349.6324548317
 20
-189.4696436502
 10
347.2308707687
 20
-189.4806358902
 10
344.8972919629
 20
-189.3042465689
 10
342.6385633259
 20
-188.940992683
 10
340.4613098154
 20
-188.3919379811
 10
338.3719193131
 20
-187.6586937231
 10
338.0252272398
 20
-187.5155892245
  0
LWPOLYLINE
  5
EA
330
1F
100
AcDbEntity
  8
0
  6
Continuous
 62
     1
370
    25
100
AcDbPolyline
 90
       42
 70
   128
 43
0.0
 10
418.3810243501
 20
-82.5065462162
 10
418.6059146654
 20
-83.2829056329
 10
419.2508193995
 20
-85.9051547437
 10
419.7543794088
 20
-88.6449269757
 10
420.1151248219
 20
-91.4941810563
 10
420.3320019677
 20
-94.4445576885
 10
420.4043628382
 20
-97.4874093978
 10
420.3320019677
 20
-100.6138071899
 10
420.1151248219
 20
-103.8145848447
 10
419.7543794088
 20
-107.0803467137
 10
419.2508193995
 20
-110.401516957
 10
418.6059146654
 20
-113.7683572247
 10
417.8215618146
 20
-117.1709900424
 10
416.9000683871
 20
-120.5994307488
 10
415.8441265129
 20
-124.0436277979
 10
414.6568339853
 20
-127.4934825334
 10
413.3416810901
 20
-130.9388659169
 10
411.90252163
 20
-134.369676321
 10
410.343575558
 20
-137.7758547386
 10
408.6694158073
 20
-141.1474060746
 10
406.8849524857
 20
-144.474444772
 10
404.9954249732
 20
-147.7472024163
 10
403.006367678
 20
-150.9560931314
 10
400.9236205728
 20
-154.0916953302
 10
398.7532896821
 20
-157.1448140684
 10
396.5017444486
 20
-160.1064916907
 10
394.1755861223
 20
-162.9680443303
 10
391.7816359072
 20
-165.7210839612
 10
389.3269204734
 20
-168.3575237199
 10
386.818636395
 20
-170.8696318948
 10
384.2641422486
 20
-173.2500516981
 10
381.6709309534
 20
-175.4917928974
 10
379.04660804
 20
-177.5882747804
 10
376.3988718937
 20
-179.5333558106
 10
373.7354882361
 20
-181.3213361918
 10
371.0642695451
 20
-182.9469575809
 10
368.3930508541
 20
-184.405459645
 10
365.7296671965
 20
-185.6925565801
 10
363.0819310502
 20
-186.804486634
 10
360.4576081368
 20
-187.7379834919
 10
357.8643968417
 20
-188.4903003237
 10
356.8054059063
 20
-188.7473461587
  0
LWPOLYLINE
  5
EB
330
1F
100
AcDbEntity
  8
0
  6
Continuous
 62
     1
370
    25
100
AcDbPolyline
 90
       35
 70
   128
 43
0.0
 10
439.44312164
 20
-124.8898313604
 10
439.5014528783
 20
-125.0114310478
 10
440.2135607624
 20
-126.7229842431
 10
440.7879722582
 20
-128.5689606687
 10
441.2215474256
 20
-130.5392812352
 10
441.5119207726
 20
-132.6231825089
 10
441.6575065241
 20
-134.8092830634
 10
441.6575065241
 20
-137.0856446971
 10
441.5119207726
 20
-139.4398349824
 10
441.2215474256
 20
-141.8589941864
 10
440.7879722582
 20
-144.3299099856
 10
440.2135607624
 20
-146.8390878077
 10
439.5014528783
 20
-149.3728232653
 10
438.6555366528
 20
-151.9172770591
 10
437.6804297998
 20
-154.458555205
 10
436.5814625787
 20
-156.982774432
 10
435.3646343299
 20
-159.4761519132
 10
434.0365924017
 20
-161.9250645796
 10
432.604587369
 20
-164.3161434136
 10
431.0764427408
 20
-166.6363243966
 10
429.46050491
 20
-168.8729382398
 10
427.7655983731
 20
-171.0137696951
 10
426.0009809488
 20
-173.0471229516
 10
424.1762897773
 20
-174.961895395
 10
422.3014906128
 20
-176.7476281733
 10
420.386823493
 20
-178.3945679802
 10
418.4427454463
 20
-179.893721422
 10
416.4798743503
 20
-181.236896553
 10
414.5089306922
 20
-182.4167638733
 10
412.5406790817
 20
-183.4268748835
 10
410.5858695583
 20
-184.2617142182
 10
408.655178075
 20
-184.9167218366
 10
406.7591507283
 20
-185.3883191344
 10
404.9081414841
 20
-185.6739296844
 10
404.3231228119
 20
-185.7260452062
  0
LWPOLYLINE
  5
EC
330
1F
100
AcDbEntity
  8
0
  6
Continuous
 62
     1
370
    25
100
AcDbPolyline
 90
       37
 70
   128
 43
0.0
 10
438.5597157927
 20
-123.065835256
 10
439.1643360422
 20
-123.9825128934
 10
440.0052631346
 20
-125.5410411031
 10
440.7131695047
 20
-127.2424957174
 10
441.2841908134
 20
-129.0775812359
 10
441.7152081938
 20
-131.0362759859
 10
442.0038693251
 20
-133.1078811745
 10
442.1485937004
 20
-135.2810844827
 10
442.1485937004
 20
-137.5440150109
 10
442.0038693251
 20
-139.8843135261
 10
441.7152081938
 20
-142.2891997628
 10
441.2841908134
 20
-144.7455365876
 10
440.7131695047
 20
-147.2399092758
 10
440.0052631346
 20
-149.7586951877
 10
439.1643360422
 20
-152.2881371517
 10
438.1949848682
 20
-154.8144195094
 10
437.1025003592
 20
-157.3237464395
 10
435.8928515626
 20
-159.8024119188
 10
434.572644997
 20
-162.236875765
 10
433.1490904075
 20
-164.6138457634
 10
431.6299625707
 20
-166.9203377396
 10
430.0235578302
 20
-169.1437538833
 10
428.3386519502
 20
-171.2719527071
 10
426.5844461145
 20
-173.2933091175
 10
424.7705214872
 20
-175.1967832332
 10
422.9067838948
 20
-176.9719812164
 10
421.0034141061
 20
-178.6092052688
 10
419.0708065875
 20
-180.0995102802
 10
417.1195169845
 20
-181.4347645659
 10
415.1602023581
 20
-182.6076691573
 10
413.2035640566
 20
-183.6118181587
 10
411.2602882817
 20
-184.4417330575
 10
409.3409889598
 20
-185.0928744108
 10
407.4561476501
 20
-185.5616887036
 10
405.6160603666
 20
-185.8456177542
 10
403.83077584
 20
-185.9431069788
 10
402.301806714
 20
-185.873181915
  0
ENDSEC
  0
SECTION
  2
OBJECTS
  0
DICTIONARY
  5
C
330
0
100
AcDbDictionary
281
     1
  3
ACAD_GROUP
350
D
  3
ACAD_LAYOUT
350
1A
  3
ACAD_MLINESTYLE
350
17
  3
ACAD_PLOTSETTINGS
350
19
  3
ACAD_PLOTSTYLENAME
350
E
  3
ACAD_SCALELIST
350
47
  0
DICTIONARY
  5
D
102
{ACAD_REACTORS
330
C
102
}
330
C
100
AcDbDictionary
281
     1
  0
DICTIONARY
  5
1A
102
{ACAD_REACTORS
330
C
102
}
330
C
100
AcDbDictionary
281
     1
  3
Layout1
350
1E
  3
Layout2
350
26
  3
Model
350
22
  0
DICTIONARY
  5
17
102
{ACAD_REACTORS
330
C
102
}
330
C
100
AcDbDictionary
281
     1
  3
Standard
350
18
  0
DICTIONARY
  5
19
102
{ACAD_REACTORS
330
C
102
}
330
C
100
AcDbDictionary
281
     1
  0
ACDBDICTIONARYWDFLT
  5
E
102
{ACAD_REACTORS
330
C
102
}
330
C
100
AcDbDictionary
281
     1
  3
Normal
350
F
100
AcDbDictionaryWithDefault
340
F
  0
DICTIONARY
  5
47
102
{ACAD_REACTORS
330
C
102
}
330
C
100
AcDbDictionary
281
     1
  3
A0
350
48
  3
A1
350
49
  3
A2
350
4A
  3
A3
350
4B
  3
A4
350
4C
  3
A5
350
4D
  3
A6
350
4E
  3
A7
350
4F
  3
A8
350
50
  3
A9
350
51
  3
B0
350
52
  3
B1
350
53
  3
B2
350
54
  3
B3
350
55
  3
B4
350
56
  3
B5
350
57
  3
B6
350
58
  3
B7
350
59
  3
B8
350
5A
  3
B9
350
5B
  3
C0
350
5C
  3
C1
350
5D
  3
C2
350
5E
  3
C3
350
5F
  3
C4
350
60
  3
C5
350
61
  3
C6
350
62
  3
C7
350
63
  3
C8
350
64
  3
C9
350
65
  3
D0
350
66
  3
D1
350
67
  3
D2
350
68
  0
LAYOUT
  5
1E
102
{ACAD_REACTORS
330
1A
102
}
330
1A
100
AcDbPlotSettings
  1

  2
none_device
  4

  6

 40
0.0
 41
0.0
 42
0.0
 43
0.0
 44
0.0
 45
0.0
 46
0.0
 47
0.0
 48
0.0
 49
0.0
140
0.0
141
0.0
142
1.0
143
1.0
 70
   688
 72
     1
 73
     0
 74
     5
  7

 75
    16
147
1.0
148
0.0
149
0.0
100
AcDbLayout
  1
Layout1
 70
     1
 71
     1
 10
0.0
 20
0.0
 11
420.0
 21
297.0
 12
0.0
 22
0.0
 32
0.0
 14
1.0000000000E+20
 24
1.0000000000E+20
 34
1.0000000000E+20
 15
-1.0000000000E+20
 25
-1.0000000000E+20
 35
-1.0000000000E+20
146
0.0
 13
0.0
 23
0.0
 33
0.0
 16
1.0
 26
0.0
 36
0.0
 17
0.0
 27
1.0
 37
0.0
 76
     0
330
1B
  0
LAYOUT
  5
26
102
{ACAD_REACTORS
330
1A
102
}
330
1A
100
AcDbPlotSettings
  1

  2
none_device
  4

  6

 40
0.0
 41
0.0
 42
0.0
 43
0.0
 44
0.0
 45
0.0
 46
0.0
 47
0.0
 48
0.0
 49
0.0
140
0.0
141
0.0
142
1.0
143
1.0
 70
   688
 72
     1
 73
     0
 74
     5
  7

 75
    16
147
1.0
148
0.0
149
0.0
100
AcDbLayout
  1
Layout2
 70
     1
 71
     2
 10
0.0
 20
0.0
 11
0.0
 21
0.0
 12
0.0
 22
0.0
 32
0.0
 14
0.0
 24
0.0
 34
0.0
 15
0.0
 25
0.0
 35
0.0
146
0.0
 13
0.0
 23
0.0
 33
0.0
 16
1.0
 26
0.0
 36
0.0
 17
0.0
 27
1.0
 37
0.0
 76
     0
330
23
  0
LAYOUT
  5
22
102
{ACAD_REACTORS
330
1A
102
}
330
1A
100
AcDbPlotSettings
  1

  2
none_device
  4
Letter_(8.50_x_11.00_Inches)
  6

 40
6.35
 41
6.35
 42
6.35000508
 43
6.35000508
 44
215.9
 45
279.4
 46
0.0
 47
0.0
 48
0.0
 49
0.0
140
0.0
141
0.0
142
1.0
143
1.0
 70
  1712
 72
     1
 73
     0
 74
     0
  7

 75
     0
147
1.0
148
0.0
149
0.0
100
AcDbLayout
  1
Model
 70
     1
 71
     0
 10
0.0
 20
0.0
 11
279.4
 21
215.9
 12
0.0
 22
0.0
 32
0.0
 14
0.0
 24
0.0
 34
0.0
 15
279.4
 25
215.9
 35
0.0
146
0.0
 13
0.0
 23
0.0
 33
0.0
 16
1.0
 26
0.0
 36
0.0
 17
0.0
 27
1.0
 37
0.0
 76
     0
330
1F
331
29
  0
MLINESTYLE
  5
18
102
{ACAD_REACTORS
330
17
102
}
330
17
100
AcDbMlineStyle
  2
Standard
 70
     0
  3

 62
   256
 51
90.0
 52
90.0
 71
     2
 49
0.5
 62
   256
  6
BYLAYER
 49
-0.5
 62
   256
  6
BYLAYER
  0
ACDBPLACEHOLDER
  5
F
102
{ACAD_REACTORS
330
E
102
}
330
E
  0
SCALE
  5
48
102
{ACAD_REACTORS
330
47
102
}
330
47
100
AcDbScale
 70
     0
300
1:1
140
1.0
141
1.0
290
     1
  0
SCALE
  5
49
102
{ACAD_REACTORS
330
47
102
}
330
47
100
AcDbScale
 70
     0
300
1:2
140
1.0
141
2.0
290
     0
  0
SCALE
  5
4A
102
{ACAD_REACTORS
330
47
102
}
330
47
100
AcDbScale
 70
     0
300
1:4
140
1.0
141
4.0
290
     0
  0
SCALE
  5
4B
102
{ACAD_REACTORS
330
47
102
}
330
47
100
AcDbScale
 70
     0
300
1:5
140
1.0
141
5.0
290
     0
  0
SCALE
  5
4C
102
{ACAD_REACTORS
330
47
102
}
330
47
100
AcDbScale
 70
     0
300
1:8
140
1.0
141
8.0
290
     0
  0
SCALE
  5
4D
102
{ACAD_REACTORS
330
47
102
}
330
47
100
AcDbScale
 70
     0
300
1:10
140
1.0
141
10.0
290
     0
  0
SCALE
  5
4E
102
{ACAD_REACTORS
330
47
102
}
330
47
100
AcDbScale
 70
     0
300
1:16
140
1.0
141
16.0
290
     0
  0
SCALE
  5
4F
102
{ACAD_REACTORS
330
47
102
}
330
47
100
AcDbScale
 70
     0
300
1:20
140
1.0
141
20.0
290
     0
  0
SCALE
  5
50
102
{ACAD_REACTORS
330
47
102
}
330
47
100
AcDbScale
 70
     0
300
1:30
140
1.0
141
30.0
290
     0
  0
SCALE
  5
51
102
{ACAD_REACTORS
330
47
102
}
330
47
100
AcDbScale
 70
     0
300
1:40
140
1.0
141
40.0
290
     0
  0
SCALE
  5
52
102
{ACAD_REACTORS
330
47
102
}
330
47
100
AcDbScale
 70
     0
300
1:50
140
1.0
141
50.0
290
     0
  0
SCALE
  5
53
102
{ACAD_REACTORS
330
47
102
}
330
47
100
AcDbScale
 70
     0
300
1:100
140
1.0
141
100.0
290
     0
  0
SCALE
  5
54
102
{ACAD_REACTORS
330
47
102
}
330
47
100
AcDbScale
 70
     0
300
2:1
140
2.0
141
1.0
290
     0
  0
SCALE
  5
55
102
{ACAD_REACTORS
330
47
102
}
330
47
100
AcDbScale
 70
     0
300
4:1
140
4.0
141
1.0
290
     0
  0
SCALE
  5
56
102
{ACAD_REACTORS
330
47
102
}
330
47
100
AcDbScale
 70
     0
300
8:1
140
8.0
141
1.0
290
     0
  0
SCALE
  5
57
102
{ACAD_REACTORS
330
47
102
}
330
47
100
AcDbScale
 70
     0
300
10:1
140
10.0
141
1.0
290
     0
  0
SCALE
  5
58
102
{ACAD_REACTORS
330
47
102
}
330
47
100
AcDbScale
 70
     0
300
100:1
140
100.0
141
1.0
290
     0
  0
SCALE
  5
59
102
{ACAD_REACTORS
330
47
102
}
330
47
100
AcDbScale
 70
     0
300
1/128" = 1'-0"
140
0.0078125
141
12.0
290
     0
  0
SCALE
  5
5A
102
{ACAD_REACTORS
330
47
102
}
330
47
100
AcDbScale
 70
     0
300
1/64" = 1'-0"
140
0.015625
141
12.0
290
     0
  0
SCALE
  5
5B
102
{ACAD_REACTORS
330
47
102
}
330
47
100
AcDbScale
 70
     0
300
1/32" = 1'-0"
140
0.03125
141
12.0
290
     0
  0
SCALE
  5
5C
102
{ACAD_REACTORS
330
47
102
}
330
47
100
AcDbScale
 70
     0
300
1/16" = 1'-0"
140
0.0625
141
12.0
290
     0
  0
SCALE
  5
5D
102
{ACAD_REACTORS
330
47
102
}
330
47
100
AcDbScale
 70
     0
300
3/32" = 1'-0"
140
0.09375
141
12.0
290
     0
  0
SCALE
  5
5E
102
{ACAD_REACTORS
330
47
102
}
330
47
100
AcDbScale
 70
     0
300
1/8" = 1'-0"
140
0.125
141
12.0
290
     0
  0
SCALE
  5
5F
102
{ACAD_REACTORS
330
47
102
}
330
47
100
AcDbScale
 70
     0
300
3/16" = 1'-0"
140
0.1875
141
12.0
290
     0
  0
SCALE
  5
60
102
{ACAD_REACTORS
330
47
102
}
330
47
100
AcDbScale
 70
     0
300
1/4" = 1'-0"
140
0.25
141
12.0
290
     0
  0
SCALE
  5
61
102
{ACAD_REACTORS
330
47
102
}
330
47
100
AcDbScale
 70
     0
300
3/8" = 1'-0"
140
0.375
141
12.0
290
     0
  0
SCALE
  5
62
102
{ACAD_REACTORS
330
47
102
}
330
47
100
AcDbScale
 70
     0
300
1/2" = 1'-0"
140
0.5
141
12.0
290
     0
  0
SCALE
  5
63
102
{ACAD_REACTORS
330
47
102
}
330
47
100
AcDbScale
 70
     0
300
3/4" = 1'-0"
140
0.75
141
12.0
290
     0
  0
SCALE
  5
64
102
{ACAD_REACTORS
330
47
102
}
330
47
100
AcDbScale
 70
     0
300
1" = 1'-0"
140
1.0
141
12.0
290
     0
  0
SCALE
  5
65
102
{ACAD_REACTORS
330
47
102
}
330
47
100
AcDbScale
 70
     0
300
1-1/2" = 1'-0"
140
1.5
141
12.0
290
     0
  0
SCALE
  5
66
102
{ACAD_REACTORS
330
47
102
}
330
47
100
AcDbScale
 70
     0
300
3" = 1'-0"
140
3.0
141
12.0
290
     0
  0
SCALE
  5
67
102
{ACAD_REACTORS
330
47
102
}
330
47
100
AcDbScale
 70
     0
300
6" = 1'-0"
140
6.0
141
12.0
290
     0
  0
SCALE
  5
68
102
{ACAD_REACTORS
330
47
102
}
330
47
100
AcDbScale
 70
     0
300
1'-0" = 1'-0"
140
12.0
141
12.0
290
     0
  0
ENDSEC
  0
EOF
